Make your own free website on Tripod.com
 

 

 
// EVERYONE //
TUNING: Drop D and down 2 steps (Bb, F, Bb, Eb, G, C)

RIFF 1:
C |------------------------------------------|
G |------------------------------------------|
Eb|------------------------------------------|
Bb|-7-0-0-0--0--7-0-0-0--0--7-0-0-0--0-2/8-0-|
F |-7-0-0-0--0--7-0-0-0--0--7-0-0-0--0-2/8-0-|
Bb|-7-0-0-0--0--7-0-0-0--0--7-0-0-0--0-2/8-0-|

RIFF 2:
C |--------5---|
G |----------5-|
Eb|-7/9--------| very hard to hear...
Bb|------------| just play that w/o delay and hold the 9 for one bar...
F |------------|
Bb|------------|

RIFF 3:
C |----------------------------------|
G |----------------------------------|
Eb|-2-2-2-2-2-2-3-3------------------|
Bb|-2-2-2-2-2-2-3-3--3-3-3-0-0-0-1-0-|
F |-0-0-0-0-0-0-1-1--3-3-3-0-0-0-1-0-|
Bb|------------------3-3-3-0-0-0-1-0-|

RIFF 4:
C |----------------------------------|
G |----------------------------------|
Eb|-2-2-2-2-2-2-3-3------------------|
Bb|-2-2-2-2-2-2-3-3--3-3-3-3-2-2-1-1-|
F |-0-0-0-0-0-0-1-1--3-3-3-3-2-2-1-1-|
Bb|------------------3-3-3-3-2-2-1-1-|

RIFF 5a: (rhythm)
C |-----------------|
G |-----------------|
Eb|-----2-2-----3-2-|
Bb|-----------------|
F |-0-0-----0-0-----|
Bb|-----------------|

RIFF 5b: (lead, when vocals come in)
C |-3h5-5--8-6p5-5--3--3h5-5--8-6wd-|
G |---------------------------------|
Eb|---------------------------------| wd=slow whammy dive
Bb|---------------------------------|
F |---------------------------------|
Bb|---------------------------------|

RIFF 6: (lead for last chorus)
C |---------------------------------------------------------------------|
G |---------------------------------------------------------------------|
Eb|-/14------15-15--10-10-10/7-7-8-7---/12------15-15--10-10-10/9-9/8-8-|
Bb|--x-------x--x---x--x--x--x-x-x-x----x-------x--x---x--x--x--x-x-x-x-|
F |-/12------13-13--8--8--8-/5-5-6-5---/12------13-13--8--8--8-/7-7/6-6-|
Bb|---------------------------------------------------------------------|

RIFF 7: (end on)
C |-----|
G |-----|
Eb|-/14-|
Bb|--x--|
F |-/12-|
Bb|-----|


tabbed by Chris Frazier

Back to tabs

ademacover.jpg (18544 bytes)
 
// BLOW IT AWAY //
TUNING: Standard

VERSE & INTRO (4x)
E-------------------------
B-------------------------
G-------------------------
D66666-999994444333-666777
A66666-999994444333-444777
E44444-777772222111-444555

CHORUS (6x)
E4--2---
B--4--3-
G-------
D-------
A-------
E-------

BETWEEN 2nd & 3rd VERSE (2x)
E----------------
B----------------
G----------------
D6666555566662222
A6666555566662222
E4444333344440000

ENDING: 2nd VERSE
E------
B------
G------
D6-4-7-
A6-4-7-
E4-2-5-


tabbed by Matthias Jurisch

Back to tabs

ademacover.jpg (18544 bytes)
 
// GIVING IN (1) //
TUNING: Standard (EADGBe)

Intro: (6x)
e|--4---4-4-4-4-4---4---4-4-4-4-4
B|5---5-----------4---4----------
G|-------------------------------
D|-------------------------------
A|-------------------------------
E|-------------------------------

Verse: (4x)
e|----------------------------------------------
B|----------------------------------------------
G|----------------------------------------------
D|6-6-8h9p8--9-9-6h8p6--11-11--------11-11------
A|6-6--------9-9--------11-11-6h7p6--11-11------
E|4-4--------7-7---------9--9---------9--9-6h7p6

Solo: (2x with wah)
e|---------------------------4------------
B|------4---------------------------------
G|4h6p4---6p4-4h6p4----4h6p4---6p4-3h4p3--
D|------------------6--------------------6
A|----------------------------------------
E|----------------------------------------


tabbed by Ryan U.

Back to tabs

ademacover.jpg (18544 bytes)
 
// GIVING IN (2) //
TUNING: 1 step down drop D; CGCFAD (low to high)

^=notes with this above them means bend them.
~=notes with this behind them means to give that note a vibrato effect.

Intro (Guitar 2)
D|-------------------------------------------|
A|-------------------------------------------|
F|-------15----15-15-15----15----15-15-15----| x5
C|----16----16----------15----15-------------|
G|-------------------------------------------|
C|-------------------------------------------|

D|----18--18--18--18----|
A|----------------------|
F|----15--15--15--15----|
C|----------------------|
G|----------------------|
C|----------------------|

(0:01)
This part is played with an echo effect. The last part gradually gets louder.

Guitar 2
D|----------------------------------------|
A|----------------------------------------|
F|----5h6p5----3h5p3----------------------| x2
C|----------------------3h4p3-------------|
G|-------------------------------3h4p3----|
C|----------------------------------------|

(0:06)
This part you play softly in the back ground. It is played using an octave effect. Gradually get louder.

Bridge 1 (Guitar 1)
D|--------------------------------------------------------------------|
A|--------------------------------------------------------------------|
F|----------5h6p5------------3h5p3------------------------------------| x4
C|--8--8-------------4--4-------------1--1----3h4p3----1--1-----------|
G|--8--8-------------4--4-------------1--1-------------1--1----3h4p3--|
C|--8--8-------------4--4-------------1--1-------------1--1-----------|

(0:19)
This part of the song is played using an Octave effect. The octave effect adds a cool darkness to this part.

Guitar
D|--------------------------------------------------------------------|
A|--------------------------------------------------------------------|
F|--------------------------------------------------------------------|
C|--8--8--8--8----11--11--11--11----1--1--1--1--1--1--1--1----8--8--8-|
G|--8--8--8--8----11--11--11--11----1--1--1--1--1--1--1--1----8--8--8-|
C|--8--8--8--8----11--11--11--11----1--1--1--1--1--1--1--1----8--8--8-|

D|------------------------------------------------------------|
A|------------------------------------------------------------|
F|------------------------------------------------------------| x2
C|-8----11--11--11--11----13--13--13--13----16--16--15--15----|
G|-8----11--11--11--11----13--13--13--13----16--16--15--15----|
C|-8----11--11--11--11----13--13--13--13----16--16--15--15----|

(0:19)
Each note in this part represents an up and down stroke. Other than that this part is played with a normal distortion.

Verse 1 (Guitar 2)
D|----------------------| |----18--18--18--18----|
A|----------------------| |----------------------|
F|----15--15--15--15----| |----15--15--15--15----|
C|----------------------| |----------------------|
G|----------------------| |----------------------|
C|----------------------| |----------------------|
(0:44)

In the verse it is mainly bass. This guitar part is played in the back ground. Gradually get louder than softer again, and at the end play the second part. It is played through the entire verse.

Chorus 1 (Guitar 2)
D|------------------------------------|
A|--11-------^------------------------|
F|------13--10--10--8--8/13--13~~~----| x4
C|------------------------------------|
G|------------------6--6/11--11~~~----|
C|------------------------------------|

(1:09)
This part is played with a lighter distortion and an effect that makes it sound like two guitars are playing it.

Guitar 1
D|--------------------------------------|
A|--------------------------------------|
F|--------------------------------------| x4
C|--8--8----4--4----1--1----1--1--0--0--|
G|--8--8----4--4----1--1----1--1--0--0--|
C|--8--8----4--4----1--1----1--1--0--0--|

(1:09)
This is played in the back ground. Use just normal distortion.

Bridge 2 (Guitar 1)
D|--------------------------------------------------------------------|
A|--------------------------------------------------------------------|
F|----------5h6p5------------3h5p3------------------------------------| x2
C|--8--8-------------4--4-------------1--1----3h4p3----1--1-----------|
G|--8--8-------------4--4-------------1--1-------------1--1----3h4p3--|
C|--8--8-------------4--4-------------1--1-------------1--1-----------|

(1:34)
This part of the song is played using an Octave effect. The octave effect adds a cool darkness to this part.

Guitar 2
D|--------------------------------------------------------------------|
A|--------------------------------------------------------------------|
F|--------------------------------------------------------------------|
C|--8--8--8--8----11--11--11--11----1--1--1--1--1--1--1--1----8--8--8-|
G|--8--8--8--8----11--11--11--11----1--1--1--1--1--1--1--1----8--8--8-|
C|--8--8--8--8----11--11--11--11----1--1--1--1--1--1--1--1----8--8--8-|

D|------------------------------------------------------------|
A|------------------------------------------------------------|
F|------------------------------------------------------------|
C|-8----11--11--11--11----13--13--13--13----16--16--15--15----|
G|-8----11--11--11--11----13--13--13--13----16--16--15--15----|
C|-8----11--11--11--11----13--13--13--13----16--16--15--15----|

(1:34)
Each note in this part represents an up and down stroke. Other than that this part is played with a normal distortion.

Verse 2 (Guitar 2)
D|----------------------| |----18--18--18--18----|
A|----------------------| |----------------------|
F|----15--15--15--15----| |----15--15--15--15----|
C|----------------------| |----------------------|
G|----------------------| |----------------------|
C|----------------------| |----------------------|

(1:46)
In the verse it is mainly bass. This guitar part is played in the background. Gradually get louder than softer again, and at the end play the second part.

Guitar 1
D|-------------|
A|-------------|
F|-------------| x1
C|-------------|
G|----3h4p3----|
C|-------------|

(1:58)
This part is played during the second verse using the octave effect. Nothing major.

Chorus 2 (Guitar 2)
D|------------------------------------|
A|--11-------^------------------------|
F|------13--10--10--8--8/13--13~~~----| x4
C|------------------------------------|
G|------------------6--6/11--11~~~----|
C|------------------------------------|

(2:13)
This part is played with a lighter distortion and an effect that makes it sound like two guitars are playing it.

Guitar 1
D|--------------------------------------|
A|--------------------------------------|
F|--------------------------------------| x4
C|--8--8----4--4----1--1----1--1--0--0--|
G|--8--8----4--4----1--1----1--1--0--0--|
C|--8--8----4--4----1--1----1--1--0--0--|

(2:13)
This is played in the back ground. Use just normal distortion.

Solo (Guitar 1)
D|---------------------------------------------------------------------|
A|-----------------------------------------------------------11--------|
F|--------------------11-----------------------------------------------|
C|----------11h13p11------13p11--11h13p11----------11h13p11------13p11-|
G|--13--13---------------------------------13--13----------------------|
C|---------------------------------------------------------------------|

D|------------------|
A|------------------|
F|------------------| x2
C|--10h11p10--------|
G|------------(13)--|
C|------------------|

(2:37)
This is the guitar solo. Play it using mild distortion and a wah effect. Play the last note (the G13 in ()) only the second time around, and let it ring out.

Guitar 2
D|--------------------------------------------------------------------|
A|--------------------------------------------------------------------|
F|--------------------------------------------------------------------|
C|--8--8--8--8----11--11--11--11----1--1--1--1--1--1--1--1----8--8--8-|
G|--8--8--8--8----11--11--11--11----1--1--1--1--1--1--1--1----8--8--8-|
C|--8--8--8--8----11--11--11--11----1--1--1--1--1--1--1--1----8--8--8-|

D|------------------------------------------------------------|
A|------------------------------------------------------------|
F|------------------------------------------------------------|
C|-8----11--11--11--11----13--13--13--13----16--16--15--15----|
G|-8----11--11--11--11----13--13--13--13----16--16--15--15----|
C|-8----11--11--11--11----13--13--13--13----16--16--15--15----|

(2:37)
This is in the background being played during the solo. Use normal distortion

Hard/heavy part (Guitar 1)
D|--------------------------------------|
A|--------------------------------------|
F|--------------------------------------| x4
C|--8--8----4--4----1--1----1--1--0--0--|
G|--8--8----4--4----1--1----1--1--0--0--|
C|--8--8----4--4----1--1----1--1--0--0--|

(3:15)
Play this using the octave effect

Guitar 2
D|------------------------------------|
A|------------------------------------|
F|--5h6p5----3h5p3--------------------| x4
C|--------------------3h4p3-----------|
G|-----------------------------3h4p---|
C|------------------------------------|

(3:15)
PLay this part using a wah effect, play along to the words sung.

Chorus 3 (Guitar 2)
D|------------------------------------|
A|--11-------^------------------------|
F|------13--10--10--8--8/13--13~~~----| x4
C|------------------------------------|
G|------------------6--6/11--11~~~----|
C|------------------------------------|

(3:40)
This part is played with a lighter distortion and an effect that makes it sound like two guitars are playing it.

Guitar 1
D|--------------------------------------|
A|--------------------------------------|
F|--------------------------------------| x4
C|--8--8----4--4----1--1----1--1--0--0--|
G|--8--8----4--4----1--1----1--1--0--0--|
C|--8--8----4--4----1--1----1--1--0--0--|

(3:40)
This is played in the back ground. Use just normal distortion.

Chorus 4 (Guitar 2)
D|--18--16---^-------------------|
A|----------18--18--16-----------|
F|----------------------13~~~----| x2
C|-------------------------------|
G|----------------------11~~~----|
C|-------------------------------|

(4:05)
This part is played with a lighter distortion and an effect that makes it sound like two guitars are playing it.

Guitar 1
D|--------------------------------------|
A|--------------------------------------|
F|--------------------------------------| x2
C|--8--8----4--4----1--1----1--1--0--0--|
G|--8--8----4--4----1--1----1--1--0--0--|
C|--8--8----4--4----1--1----1--1--0--0--|

(4:05)
This is played in the background using normal distortion.

Outro (Guitar 2)
D|-------------------------------------------|
A|-------------------------------------------|
F|-------15----15-15-15----15----15-15-15----|
C|----16----16----------15----15-------------|
G|-------------------------------------------|
C|-------------------------------------------|

(4:20)
Play it lightly. Fade out gradually.


tabbed by J_dogg_0@hotmail.com
thanks to Michael Beattie

Back to tabs

ademacover.jpg (18544 bytes)
 
// THE WAY YOU LIKE IT //
TUNING: Standard

INTRO/CHORUS:

GUITAR 1:
------------------x8-----------------------------------------x2---------------
------------------------------------------------------------------------------
----------------------------------1111-1111--1010-1010------------------------
-8-8-8-8-8-8-8-8--------88-88-88--1111-1111--1010-1010--1111------------------
-8-8-8-8-8-8-8-8--------88-88-88--9-9--9-9---8-8--8-8---1111------------------
-6-6-6-6-6-6-6-6--------66-66-66------------------------9-9-------------------

GUITAR 2: (Play this 4x - the first is very quiet)
-16*---14*---13*--------------------------------------------------------------
------------------------------------------------------------------------------
------------------------------------------------------------------------------
------------------------------------------------------------------------------
------------------------------------------------------------------------------
------------------------------------------------------------------------------

VERSE:

BOTH GUITARS:
------------------------------------------------------------------------------
--------------------------------------------------------------------x2--------
------------------------------------------------------------------------------
-88-88-88-88---88-88-88-88---88-88-88-88---88-88-88-66/-11-11-11-11-----------
-88-88-88-88---88-88-88-88---88-88-88-88---88-88-88-66/-11-11-11-11-----------
-66-66-66-66---66-66-66-66---66-66-66-66---66-66-66-44/-9--9--9--9------------

FILL:

GUITAR 2 (Guitar 1 plays verse)
-------------13*--14*--13*----------------------------------------------------
-14--13--11-------------------------------------------------------------------
------------------------------------------------------------------------------
------------------------------------------------------------------------------
------------------------------------------------------------------------------
------------------------------------------------------------------------------

ORDER:

Intro/Chorus, Verse, Intro/Chorus (without guitar 2), Verse, Intro/Chorus (with guitar 2 - it plays 2x, listen for timing), Then some DJ stuff, Verse and Fill 1 behind it (listen for timing), Intro/Chorus (both guitars playing - at end guitar 2 starts going faster, listen again for timing), End.

tabbed by: Adam Cantrell

Back to lyrics

 
// CLOSE FRIENDS //
TUNING: Standard (EADGBe)

The intro strum pattern is quite irregular but if you listen to it you'll get it.

Intro/Chorus: (They use a really funcky effects box during the intro)

Guitar 1

- - - 6 - 6 - 6 - 4 - 6 - 4 - - 6 - 6 - 9 - 9 - 8 - - 6 - 6 - 6 - 4 - 6 - 4 - - 6 - 6 - 4 - 4 - 6 - - - e
- 6 - - - - - - - - - - - - - 7 - - - - - - - - - - 6 - - - - - - - - - - - 7 - - - - - - - - - - - - -
- - - - - - - - - - - - - - - - - - - - - - - - - - - - - - - - - - - - - - - - - - - - - - - - - - - - - - - - - -
- - - - - - - - - - - - - - - - - - - - - - - - - - - - - - - - - - - - - - - - - - - - - - - - - - - - - - - - - -
- - - - - - - - - - - - - - - - - - - - - - - - - - - - - - - - - - - - - - - - - - - - - - - - - - - - - - - - - -
- - - - - - - - - - - - - - - - - - - - - - - - - - - - - - - - - - - - - - - - - - - - - - - - - - - - - - - - - - E


Guitar 2

- - - - - - - - - - - - - - - - - - - - - - - - - - - - - - - - - - - - e
- - - - - - - - - - - - - - - - - - - - - - - - - - - - - - - - - - - -
- 3 3 3 3 - 3 3 3 3 - 6 6 6 6 - 2 2 2 2 - - - - - - - - - - - - - - - -
- 3 3 3 3 - 4 4 4 4 - 6 6 6 6 - 3 3 3 3 - - - - - - - - - - - - - - - -
- 1 1 1 1 - 4 4 4 4 - 4 4 4 4 - 3 3 3 3 - - - - - - - - - - - - - - - -
- - - - - - 2 2 2 2 - - - - - - 1 1 1 1 - - - - - - - - - - - - - - - - E

Verse: Same as guitar 2 intro

Chorus:

- - - - - - - - - - - - - - - - - - - - - - -
- - - - - - - - - - - - - - - - - - - - - - -
- 3 3 3 3 - 3 3 3 3 - 6 6 6 6 - 10 10 10 10 -
- 3 3 3 3 - 4 4 4 4 - 6 6 6 6 - 10 10 10 10 -
- 1 1 1 1 - 4 4 4 4 - 4 4 4 4 - 8 8 8 8 -
- - - - - - 2 2 2 2 - - - - - - - - - - - - -

Back to tabs

ademacover.jpg (18544 bytes)
 
// PAIN INSIDE //
TUNING: B F# B E G# C#

INTRO/VERSE:
|-------12-----16------12-|
|----14-------------14----|
|-13-------13-----13------|
|-------------------------|
|-------------------------|
|-------------------------|

CHORUS

GUITAR 1
|----------------|
|----------------|
|----------------|
|-4-4/7-0-0~--2/-|
|-4-4/7-0-0~--2/-|
|-4-4/7-0-0~--2/-|

GUITAR 2
|------------------------------------------|
|------14~~----------------14~~------------|
|-13~~------13~~~~---13~~~------14~~/13~~~-|
|------------------------------------------|
|------------------------------------------|
|------------------------------------------|

BRIDGE (before second chorus)

GUITAR 1
|---------|---|
|---------|---|
|-4-----3-|---|
|-4--2--3-|-1-|
|-2--2--1-|-1-|
|----2----|-1-|
*Add this the first and third time

GUITAR 2;
|------------|
|-12----11~~-|
|----13------|
|------------|
|------------|
|------------|

BRIDGE (after second chorus) and OUTRO

GUITAR 1:
|-------|
|-------|
|-------|
|-4---0-|
|-4---0-|
|-4---0-|

GUITAR 2:
|----16/17~~-----17\16~~-|
|-14---------------------|
|-------------14---------|
|------------------------|
|------------------------|
|------------------------|

tabbed by Jonathan Bissonnette

Back to tabs

ademacover.jpg (18544 bytes)
 
// SPECULUM //
h = Hammer on
p = Pull off
s = Slide
* = Let note ring out

INTRO:

Note: No guitars in the intro.

BASS:
G|--------------------------------------------|
D|--------------------------------------------|
A|--------------------------------------------|
E|-66--8s9s8-66--8s9s8-66--8s9s8-66--8s9s8----|

VERSE:

Bass immediately goes into playing this four times for first verse.

Play this riff once after the first chorus and then four more times for verse II.

G|--------------------------------------------|
D|--------------------------------------------|
A|--------------------------------------------|
E|-6*--14*--9*--13*---------------------------|

Guitars play this four times for verse I.

Play this riff once after the first chorus and then four more times for verse II

Note to guitars: Play clean with chorus effects. If you want to make the song sound almost perfect, try fading the volume in and out.

e|--------------------------------------------|
B|-------2---------------6--------------------|
G|-----3---------3-----6---------2------------|
D|---3---------4-----6---------3--------------|
A|-1---------4-----4---------3----------------|
E|---------2---------------1------------------|

CHORUS:

Guitars play this with heavy distortion twice for the first chorus and twice for chorus II and III.

e|--------------------------------------------|
B|--------------------------------------------|
G|--------------------------------------------|
D|-----------666------------------------------|
A|-888--444--444-333--------------------------|
E|-666--222------111--------------------------|

Bass plays this twice for the first chorus and twice for chorus II and III.

G|--------------------------------------------|
D|--------------------------------------------|
A|--------------------------------------------|
E|-666--14-14-14--999--13-13-13---------------|

PRE SOLO:

Guitars let the last note of chorus II ring out while bass plays intro riff once.

SOLO:

Bass and guitar I play chorus riff twice.

Guitar II plays this twice for solo:

e|--------------------------------------------|
B|--------------------------------------------|
G|--------------------------------------------|
D|-11p10-10p8-8--8s10s11-11p10-10-s15--16p15--|
A|--------------------------------------------|
E|--------------------------------------------|

OUTRO:

Guitars let last note of chorus III ring out.

Bass plays intro riff once.


tabbed by: Daniel Nist

Back to tabs

ademacover.jpg (18544 bytes)